Регистрация
Забыли
  

Вернуться назад

ТаТу — 220






  • перевод  Текст с переводом
  • аккорды  Аккорды

Зайчики на стене
После заката умирают
Мёртвым легко вдвойне
Зайчики гаснут, и замыкают

Двести двадцать на себя
Обмотался, и вперёд!
Двести двадцать на себя
Двести двадцать на неё

Ты меня учишь ждать
И говоришь смешные фразы
А я хочу всё отдать
Если любовь - значит только сразу!

Ты не поймёшь во сне
Если любовь - значит всё сгорает!
Зайчики на стене
После заката умирают

Двести двадцать на себя
Обмоталься, и вперёд!
Двести двадцать на себя
Двести двадцать на неё
Sunbeams on the wall
Die after sunset.
For dead it's easy doubly
Rabbits die away and close

220 to yourself
Warp yourself and go forwards
220 to yourself
220 to herself

You teach me how to wait
And say funny phrases.
But I want to give out everything
If it's love it's mean that at once .
You wont' understand into dream
If it's love it's mean that everything will burn.
Sunbeams on the wall
Die after sunset.

220 to yourself
Warp yourself and go forwards
220 to yourself
220 to herself


CorsaiR


E  S S S S S E  S S S S S S S    S S  S S  S S S  E  S S S S S S S  
E||---------------------------------|------------------------------------|
B||---------------------------------|------------------------------------|
G||*--8--x-8-x-x-8----8---8---8-8-8-|--x-x-11-x-11-x---11----------------|
D||*--6--x-6-x-x-6----6---6---6-6-6-|--x-x--9-x--9-x----9------9---9-9-9-|
A||---------------------------------|--------------------------7---7-7-7-|
E||---------------------------------|------------------------------------|


  E  S S S S S E  S S S S S S S    E  E  S E.  E  E.  E.   
--------------------------------|-------------------------|
--------------------------------|-------------------------|
--------------------------------|-----------------7---7---|
--6--x-6-x-x-6----6---6---6-6-6-|-----8----8---8--5---5---|
--4----4-----4----4---4---4-4-4-|--8--6----6---6----------|
--------------------------------|--6----------------------|


  E  S S S S S E  S S S S S S S    S S  S S  S S S  E  S S S S S S S  
--------------------------------|------------------------------------|
--------------------------------|------------------------------------|
--8--x-8-x-x-8----8---8---8-8-8-|--x-x-11-x-11-x---11----------------|
--6--x-6-x-x-6----6---6---6-6-6-|--x-x--9-x--9-x----9--9---9---9-9-9-|
--------------------------------|----------------------7---7---7-7-7-|
--------------------------------|------------------------------------|


  E  S S S S S E  S S S S S S S    E  E  S E.  E  E.  E.     
--------------------------------|--------------------------||
--------------------------------|--------------------------||
--------------------------------|-----------------7---7---*||
--6--x-6-x-x-6----6---6---6-6-6-|-----8----8---8--5---5---*||
--4----4-----4----4---4---4-4-4-|--8--6----6---6-----------||
--------------------------------|--6-----------------------||


   W                   W                   W                 
--------------------|-------------------|-------------------|
--------------------|-------------------|-------------------|
*-------------------|--9----------------|--6----------------|
*--6----------------|--9----------------|--6----------------|
---6----------------|--7----------------|--4----------------|
---4----------------|-------------------|-------------------|


  W                     W                   W                 
--------------------||-------------------|-------------------|
--------------------||-------------------|-------------------|
--8----------------*||--8----------------|-------------------|
--8----------------*||--8----------------|-------------------|
--6-----------------||--6----------------|-------------------|
--------------------||-------------------|-------------------|


  E  S S S S S E  S S S S S S S    S S  S S  S S S  E  S S S S S S S  
--------------------------------|------------------------------------|
--------------------------------|------------------------------------|
--8--x-8-x-x-8----8---8---8-8-8-|--x-x-11-x-11-x---11----------------|
--6--x-6-x-x-6----6---6---6-6-6-|--x-x--9-x--9-x----9--9---9---9-9-9-|
--------------------------------|----------------------7---7---7-7-7-|
--------------------------------|------------------------------------|


  E  S S S S S E  S S S S S S S    E  E  S E.  E  E.  E.   
--------------------------------|-------------------------|
--------------------------------|-------------------------|
--------------------------------|-----------------7---7---|
--6--x-6-x-x-6----6---6---6-6-6-|-----8----8---8--5---5---|
--4----4-----4----4---4---4-4-4-|--8--6----6---6----------|
--------------------------------|--6----------------------|


  E  S S S S S E  S S S S S S S    S S  S S  S S S  E  S S S S S S S  
--------------------------------|------------------------------------|
--------------------------------|------------------------------------|
--8--x-8-x-x-8----8---8---8-8-8-|--x-x-11-x-11-x---11----------------|
--6--x-6-x-x-6----6---6---6-6-6-|--x-x--9-x--9-x----9--9---9---9-9-9-|
--------------------------------|----------------------7---7---7-7-7-|
--------------------------------|------------------------------------|


  E  S S S S S E  S S S S S S S    E  E  S E.  E  E.  E.     W                 
--------------------------------|-------------------------|-----|
--------------------------------|-------------------------|-----|
--------------------------------|-----------------7---7---|-----|
--6--x-6-x-x-6----6---6---6-6-6-|-----8----8---8--5---5---|-----|
--4----4-----4----4---4---4-4-4-|--8--6----6---6----------|-----|
--------------------------------|--6----------------------|-----|


  W                   W                   W                 
-------------------|-------------------|-------------------|
-------------------|-------------------|-------------------|
-------------------|-------------------|-------------------|
-------------------|-------------------|-------------------|
-------------------|-------------------|-------------------|
-------------------|-------------------|-------------------|


    W                   W                   W                 
|--------------------|-------------------|-------------------|
|--------------------|-------------------|-------------------|
|*-------------------|--9----------------|--6----------------|
|*--6----------------|--9----------------|--6----------------|
|---6----------------|--7----------------|--4----------------|
|---4----------------|-------------------|-------------------|


  W                     W                   W                 
--------------------||-------------------|-------------------|
--------------------||-------------------|-------------------|
--8----------------*||--6----------------|--8----------------|
--8----------------*||--6----------------|--8----------------|
--6-----------------||--4----------------|--6----------------|
--------------------||-------------------|-------------------|


  W                   W                   W                   W                 
-------------------|-------------------|-------------------|-------------|
-------------------|-------------------|-------------------|-------------|
--6----------------|--8----------------|--6----------------|--8----------|
--6----------------|--8----------------|--6----------------|--8----------|
--4----------------|--6----------------|--4----------------|--6----------|
-------------------|-------------------|-------------------|-------------|


  W                   W                   W                   W                 
-------------------|-------------------|-------------------|--------|
-------------------|-------------------|-------------------|--------|
--9----------------|--9----------------|-------------------|--------|
--9----------------|--9----------------|-------------------|--------|
--7----------------|--7----------------|-------------------|--------|
-------------------|-------------------|-------------------|--------|


    E  S S S S S E  S S S S S S S    S S  S S  S S S  E  S S S S S S S  
|---------------------------------|------------------------------------|
|---------------------------------|------------------------------------|
|*--8--x-8-x-x-8----8---8---8-8-8-|--x-x-11-x-11-x---11----------------|
|*--6--x-6-x-x-6----6---6---6-6-6-|--x-x--9-x--9-x----9--9---9---9-9-9-|
|---------------------------------|----------------------7---7---7-7-7-|
|---------------------------------|------------------------------------|


  E  S S S S S E  S S S S S S S    E  E  S E.  E  E.  E.   
--------------------------------|-------------------------|
--------------------------------|-------------------------|
--------------------------------|-----------------7---7---|
--6--x-6-x-x-6----6---6---6-6-6-|-----8----8---8--5---5---|
--4----4-----4----4---4---4-4-4-|--8--6----6---6----------|
--------------------------------|--6----------------------|


  E  S S S S S E  S S S S S S S    S S  S S  S S S  E  S S S S S S S  
--------------------------------|------------------------------------|
--------------------------------|------------------------------------|
--8--x-8-x-x-8----8---8---8-8-8-|--x-x-11-x-11-x---11----------------|
--6--x-6-x-x-6----6---6---6-6-6-|--x-x--9-x--9-x----9--9---9---9-9-9-|
--------------------------------|----------------------7---7---7-7-7-|
--------------------------------|------------------------------------|


  E  S S S S S E  S S S S S S S    E  E  S E.  E  E.  E.   6x
--------------------------------|--------------------------||
--------------------------------|--------------------------||
--------------------------------|-----------------7---7---*||
--6--x-6-x-x-6----6---6---6-6-6-|-----8----8---8--5---5---*||
--4----4-----4----4---4---4-4-4-|--8--6----6---6-----------||
--------------------------------|--6-----------------------||